transcription from jonimitchell.com


Court And Spark

Guitar tablature transcribed by Mark Domyancich
[Capo on fret 2]
Tuning: DADF#AD   "Joni" Tuning: D75435

There isn't an acoustic guitar for the bulk of the song until
the very last lines of the 3rd verse. The guitar part goes:

------------------5---------------------------------------------
----------------------------------------------------------------
----------------5--------------------------------3--0-----------
---5---------------------------------------------------0--------
---5------------------------------------------------------0-----
---5------------------------------------------------------------
...complete me           I'd complete you

------------------------------------6p0-------------------------
----------------------------------------------------------------
---(3-/-10)-------------------------------0---------------------
---------------------0--4/7--6--------------0-----0-------------
------------------0----------------------------0----------------
----------------------------------------------------------------

----------------------------------------------------------------
---------7------------------------7-----------------------------
-----5--------------5---------5---------------------------------
-6------------------5-----0----------------4h5/7/9/12-----------
-----------------7---------------------0------------------------
----------------------------------------------------------------

----------------------------------------------------------------
----------------------------------------------------------------
---------8/12/10----------------------------10------------------
----0---------------------0-------------10------12--10--12------
-0----------------------------------10--------------------------
--------------------------------10------------------------------

-0--------------------------------------------------------------
----4--4h5p4----------------------------------------------------
---------------3------------------------------------------------
-------------------0--------------------------------------------
----------------------------------------------------------------
----------------------------------------------------------------

© 1974 Crazy Crow Music, all rights reserved.

 

http://JoniMitchell.com/music/transcription.cfm?id=132
This transcription is the author's own work and represents their interpretation of the song.
You may only use this file for private study, scholarship, or research.
Copyrighted material on this website is used in accordance with 'Fair Use'