transcription from jonimitchell.com


Amelia

Guitar tablature transcribed by Samuel Souk-Aloun
Tuning: CGCEGC   "Joni" Tuning: C75435

from: Samuel Souk-Aloun  samsouk@club-internet.fr

If someone adds corrections to this tab, please, tell me what's going wrong.
Does someone knows where are the bars ??


   _   _   _   _   _   _   _   _   _   _   _
  | | | | | | | | | | | | | | | | | | | | | |
C|----------0-------5-------------------0-----
G|--0---0---0-5-----5-----5---5-----5---0-----
E|1-----3-----5-----------6h5-6h5---5-----0---
C|0-------0-------5-------5---5-----------0---
G|--------------5-------5---------------------
C|2-----4-----5-------5-----------5-------0---


   _   _   _   _   _   _   _   _   _   _   _ 
  | | | | | | | | | | | | | | | | | | | | | |
C|----------0-------5---------------5---------
G|--0---0---0-5-----5-----5---------5---------
E|1-----3-----5-----------6h5-6-------------6-
C|0-------0-------5-------5---5---5-------5---
G|--------------5-------5-------5-------5-----
C|2-----4-----5-------5---------------5-------
                                          I was


   _   _   _   _   _   _   _   _   _   _   _   _   _   _   _   _ 
  | | | | | | | | | | | | | | | | | | | | | | | | | | | | | | | |
C|----7-------7--------(7)-----(7)----10------10-----(10)---------|
G|7---7-------7---------7-------7-10--10------10------10------0---|
E|7-----8-------7-------7-------7-10----11------10----10------0---|
C|--7-------7---------7-------7-----10------10--------10------0---|
G|------------------7-------7-----------------------10------100---|
C|7-------7-------7-------7-------10------10------10------10------|
  driving accross the burning desert when I spotted 6 jet planes living 6


   _   _   _   _   _   _   _   _   _   _   _   _   _   _   _   _   _   _
  | | | | | | | | | | | | | | | | | | | | | | | | | | | | | | | | | | | |
C|------0---------------2-----------------------7-------7-------7---------|
G|------0---0-----------2---------------7-------7-------7-------7---------|
E|----0-----0---------3-------0---7-----8-----8-------8-------8-----------|
C|--0---------0-----2-------2-0-------------7-------7-------7-------7-----|
G|2-------2-------4-------4-------0-----9---------9-------9-------9---9-7-|
C|----------------------------0-------------------------------------------|
  white vapor trails         accross the bleak terrain            it was the


   _   _   _   _   _   _   _   _   _   _   _   _   _   _   _   _   _   _   _   _
  | | | | | | | | | | | | | | | | | | | | | | | | | | | | | | | | | | | | | | | |
C|------0---------------2---------------9-----------0------------------------0----|
G|------0---------------2---------------9------------0-----------------------0----|
E|----0-----0-----------3---------------10--------7---7----------------------0----|
C|--0---------0-------2-----2---------9-----9-----0----0---------------------0----|
G|5-------5---------4---------2-----11--------11--9-----9--------------------0----|
C|----------------4-------4-------11------11------9------9------------------(0)---|
  hexagram of the heavens it was the strings of my guitar


   _   _   _   _   _   _   _   _   _   _   _   _   _   _   _   _ 
  | | | | | | | | | | | | | | | | | | | | | | | | | | | | | | | |
C|------5-----------------------------------------------5---0-----|
G|5-----5-----5---5-----5-----5---5-------5---------5-------0-----|
E|5-----------5---6-----6-----6---5-------6h5---5-------------0---|
C|----5-------5---5---5-------5---5-----5-------5-------------0---|
G|--5-------5-------5-------5---------5-------5-------------------|
C|5-------5---------------5---------5---------------------------- |
  Amelia        it was just a false alarm

 

http://JoniMitchell.com/music/transcription.cfm?id=186
This transcription is the author's own work and represents their interpretation of the song.
You may only use this file for private study, scholarship, or research.
Copyrighted material on this website is used in accordance with 'Fair Use'