TRANSCRIPTIONS    

The Wolf That Lives In Lindsey

Guitar tablature transcribed by Marian Russell  Printer-friendly version of this piece
Tuning: CGEbFBbD   "Joni" Tuning: C78254

Rating: 0.00 (no ratings)
Log in to rate this transcription


It starts with harmonics across the 7th fret (no bass notes!), 
then to the 12th fret, and then the repeated bass note with 
intermittent harmonics on 12.  Listen to the recording!

* = harmonic tone

+ + + + + + + +


D-----*7-------*12---------------------------
B-----*7-------*12---------------------------
F-----*7-------*12---------------------------
Eb----*7-------*12---------------------------
G-----*7-------*12---------------------------
C------------------0---0---0--0--etc.------



D-----*12-------*12-------*12------*12--------------
B-----*12-------*12-------*12------*12--------------
F-----*12-------*12-------*12------*12--------------
Eb----*12-------*12-------*12------*12--------------
G-----*12-------*12-------*12------*12--------------
C-----------0---------0---------0----------etc.-----



777777
Of the darkness in mens' minds


D----------------0---------0-----5-----------------
B----------------0---------0-----5-----------------
F----------------0---------0-----5-----------------
Eb-------------0---------0-------5-----------------
G--------5-7-8-------7-8---------5-----------------
C--------------------------------5-----------------
                                    What can you say                         
                                       


D----------------0---------0-----5-----------------
B----------------0---------0-----5-----------------
F----------------0---------0-----5-----------------
Eb-------------0---------0-------5-----------------
G----------7-8-------7-8---------5-----------------
C--------------------------------5-----------------
        that wasn't marked by history


333333          888888
      Or the TV news today  he gets away with murder


D-------------------------------------------x---
B-------------------9-----------------------9---
F-------------------9-----------------------9---
Eb------------------9-----------------------9---
G-------------------9----------------------8----
C-------8--7---0---------------------------8----
                   the blizzards come and  go    the   

[Note:  both notes on 88 in the 88999x figure (the last chord) 
can be played with your index finger]


777777
stab and glare and buckshot of the


555555
heavy heavy snow  It comes and goes it comes and goes it comes and 


        [harmonics]
D--------*7-----*5---
B--------*7-----*5---
F--------*7-----*5---
Eb-------*7-----*5---
G--------*7-----*5---
C--------*7-----*5---
       goes



Middle 8:


777777
The cops don't seem to care for


555555
derelicts and ladies of the


222222
night


999999                  
They're weeds for yanking out of 


555555
sight


777777
If you're smart or rich or lucky


555555
maybe you can beat the laws of


222222
man, but the


999999                  
inner laws of spirit and the


555555
outer laws of nature, no man can, no - no man


        [harmonics]
D--------*7-----*5---
B--------*7-----*5---
F--------*7-----*5---
Eb-------*7-----*5---
G--------*7-----*5---
C--------*7-----*5---
       can


+ + + + + + + +

3rd verse:


777777
There lives a wolf in Lindsey


D----------------0---------0-----5-----------------
B----------------0---------0-----5-----------------
F----------------0---------0-----5-----------------
Eb-------------0---------0-------5-----------------
G--------5-7-8-------7-8---------5-----------------
C--------------------------------5-----------------
                 it raids and    runs
                                       


D----------------0---------0-----5-----------------
B----------------0---------0-----5-----------------
F----------------0---------0-----5-----------------
Eb-------------0---------0-------5-----------------
G--------5-7-8-------7-8---------5-----------------
C--------------------------------5-----------------
        through the hills of     Hollywood


333333              888888
   and the downtown slums    he get's away with murder


D-------------------------------------------x---
B-------------------9-----------------------9---
F-------------------9-----------------------9---
Eb------------------9-----------------------9---
G-------------------9----------------------8----
C-------8--7---0---------------------------8----
                   the blizzards come and  go    the   


777777
stab and glare and buckshot of the


555555
heavy heavy snow  It comes and goes it comes and goes it comes and 


        [harmonics]
D--------*7-----*5---
B--------*7-----*5---
F--------*7-----*5---
Eb-------*7-----*5---
G--------*7-----*5---
C--------*7-----*5---
       goes



Outtro:

D-----*12-------*12----------------------
B-----*12-------*12----------------------
F-----*12-------*12----------------------
Eb----*12-------*12----------------------
G-----*12-------*12----------------------
C-----------0---------0---0---0---0---0--


D-----*12-------*12----------------------
B-----*12-------*12----------------------
F-----*12-------*12----------------------
Eb----*12-------*12----------------------
G-----*12-------*12----------------------
C-----------0---------0---0---0---0---0--


D-----*12-------*12------*12------*12---------
B-----*12-------*12------*12------*12---------
F-----*12-------*12------*12------*12---------
Eb----*12-------*12------*12------*12---------
G-----*12-------*12------*12------*12---------
C-----------0---------0--------0---------0----


D-----*12-------*12------*12------*12---------
B-----*12-------*12------*12------*12---------
F-----*12-------*12------*12------*12---------
Eb----*12-------*12------*12------*12---------
G-----*12-------*12------*12------*12---------
C-----------0---------0--------0---------0----



D-----*12-------*12------*12------*12---------
B-----*12-------*12------*12------*12---------
F-----*12-------*12------*12------*12---------
Eb----*12-------*12------*12------*12---------
G-----*12-------*12------*12------*12---------
C-----------0---------0--------0---------0----


D-----*7--------*5---------
B-----*7--------*5---------
F-----*7--------*5---------
Eb----*7--------*5---------
G-----*7--------*5---------
C-----------0--------0-----


D-----*12-------*12------*12------*12---------
B-----*12-------*12------*12------*12---------
F-----*12-------*12------*12------*12---------
Eb----*12-------*12------*12------*12---------
G-----*12-------*12------*12------*12---------
C-----------0---------0--------0---------0----


D-----*12-------*12------*12------*12---------
B-----*12-------*12------*12------*12---------
F-----*12-------*12------*12------*12---------
Eb----*12-------*12------*12------*12---------
G-----*12-------*12------*12------*12---------
C-----------0---------0--------0---------0----



D-----*12-------*12------*12------*12---------
B-----*12-------*12------*12------*12---------
F-----*12-------*12------*12------*12---------
Eb----*12-------*12------*12------*12---------
G-----*12-------*12------*12------*12---------
C-----------0---------0--------0---------0----


D-----*7--------*5---------
B-----*7--------*5---------
F-----*7--------*5---------
Eb----*7--------*5---------
G-----*7--------*5---------
C-----------0--------0-----


D-----*12-------*12------*12------*12---------
B-----*12-------*12------*12------*12---------
F-----*12-------*12------*12------*12---------
Eb----*12-------*12------*12------*12---------
G-----*12-------*12------*12------*12---------
C-----------0---------0--------0---------0----


D-----*12-------*12------*12------*12---------
B-----*12-------*12------*12------*12---------
F-----*12-------*12------*12------*12---------
Eb----*12-------*12------*12------*12---------
G-----*12-------*12------*12------*12---------
C-----------0---------0--------0---------0----



D-----*12-------*12------*12------*12---------
B-----*12-------*12------*12------*12---------
F-----*12-------*12------*12------*12---------
Eb----*12-------*12------*12------*12---------
G-----*12-------*12------*12------*12---------
C-----------0---------0--------0---------0----


D-----*7--------*5--------*7--------*5--------
B-----*7--------*5--------*7--------*5--------
F-----*7--------*5--------*7--------*5--------
Eb----*7--------*5--------*7--------*5--------
G-----*7--------*5--------*7--------*5--------
C-----------0--------0----------0---------0---


D-----*7--------*5--------*7--------*5--------
B-----*7--------*5--------*7--------*5--------
F-----*7--------*5--------*7--------*5--------
Eb----*7--------*5--------*7--------*5--------
G-----*7--------*5--------*7--------*5--------
C-----------0--------0----------0---------0---


D-----*7--------*5--------*7--------*7--------
B-----*7--------*5--------*7--------*7--------
F-----*7--------*5--------*7--------*7--------
Eb----*7--------*5--------*7--------*7--------
G-----*7--------*5--------*7--------*7--------
C-----------0--------0----------0---------0---


D-----*7--------*7--------*7--------*7--------
B-----*7--------*7--------*7--------*7--------
F-----*7--------*7--------*7--------*7--------
Eb----*7--------*7--------*7--------*7--------
G-----*7--------*7--------*7--------*7--------
C-----------0--------0----------0---------0---



D-----*7--------*7--------*5----
B-----*7--------*7--------*5----
F-----*7--------*7--------*5----
Eb----*7--------*7--------*5----
G-----*7--------*7--------*5----
C-----------0--------0----------


D-----------
B-----------
F-----------
Eb----------
G-----------
C-----0-----


© 1979 Crazy Crow Music, all rights reserved.

 

This transcription is the author's own work and represents their interpretation of the song.
You may only use this file for private study, scholarship, or research.
Copyrighted material on this website is used in accordance with 'Fair Use'

Comments on this transcription


» Log in and be the first to add a comment.