TRANSCRIPTIONS    

Little Green

Guitar tablature transcribed by Tino Meinen and Phil Champ  Printer-friendly version of this piece
[Capo on fret 4]
Tuning: DGDGBD   "Joni" Tuning: D57543

Rating: 9.00 (1 ratings)
Log in to rate this transcription


This transcription is Phil Champ's amended version of the one 
done by Tino Meinen (most of the lyrics and chord names have 
been removed). 

Email: philchamp@yahoo.co.uk, tino@astro.uva.nl

 

D||--4-------4--------------|-----------0-----------0--|
B||--3----3--3--------3-----|--3-----------1-----------|
G||-------4--------4--4-----|--0-----0-----0-----0-----|
D||-------------0--0--0--0--|-----4-----------2--------|
G||--0-------0--------------|--4-----------2-----------|
D||-------------------------|--------------------------|


                                                    
|--------0-----------------|-----------0--------------|
|--0h1------1--------1-----|--0-----------------0-----|
|--0h2------------2--2-----|--------0--------0-----0--|
|--------------0--0--0--0--|-----0--------0-----------|
|--0--------0--------------|--0--------0--------0-----|
|--------------------------|--------------------------|


Born with the moon in Cancer
                                                    
|--4--------4--------4-----|-----------0-----------0--|
|--------------------------|--3-----------1-----------|
|--------4--------4--------|--------0-----------0-----|
|-----0--------0--------0--|-----4-----------2--------|
|--0--------0--------0-----|--4-----------2-----------|
|--------------------------|--------------------------|


                                                    
|--------------------------|--------0-----------------|
|--1--------0--------0-----|--0h1------0--------0-----|
|--------2--------2--------|-----------------0-----0--|
|-----0--------0--------0--|--------------0-----------|
|--0--------0--------0-----|--0--------0--------0-----|
|--------------------------|--------------------------|


                                                    
|--4--------4--------4-----|-----------0-----------0--|
|--------------------------|--3-----------1-----------|
|--------4--------4--------|--------0-----------0-----|
|-----0--------0--------0--|-----4-----------2--------|
|--0--------0--------0-----|--4-----------2-----------|
|--------------------------|--------------------------|


                                                    
|--------------------------|--3--------3--------3-----|
|--1--------0--------0-----|--------------------------|
|--------2--------2--------|--------2--------2--------|
|-----0--------0--------0--|-----0--------0--------0--|
|--0--------0--------0-----|--0--------0--------0-----|
|--------------------------|--------------------------|


                                                    
|-----------0--------------|--0--------0--------------|
|--1-----------------1-----|--------------------0-----|
|--------0--------0--------|--------0--------0--------|
|-----2--------2--------2--|-----2--------2--------0--|
|--2--------2--------2-----|--2--------2--------0-----|
|--------------------------|--------------------------|


                                                    
|--------------------5-----|-----------5--------5-----|
|--5--------5--------------|--5-----------------------|
|--------5--------5--------|--------5--------5--------|
|-----5--------5--------5--|-----5--------5--------0--|
|--5--------5--------5-----|--5--------5--------5-----|
|--------------------------|--------------------------|


                                                    
|--4--------4--------4-----|-----------0-----------0--|
|--------------------------|--3-----------1-----------|
|--------4--------4--------|--------0-----------0-----|
|-----0--------0--------0--|-----4-----------2--------|
|--0--------0--------0-----|--4-----------2-----------|
|--------------------------|--------------------------|


                                                    
|--------------------------|--------0-----------------|
|--1--------0--------0-----|--0h1------0--------0-----|
|--------2--------2--------|-----------------0-----0--|
|-----0--------0--------0--|--------------0-----------|
|--0--------0--------0-----|--0--------0--------0-----|
|--------------------------|--------------------------|


He went to California
                                                    
|--4--------4--------4-----|-----------0-----------0--|
|--------------------------|--3-----------1-----------|
|--------4--------4--------|--------0-----------0-----|
|-----0--------0--------0--|-----4-----------2--------|
|--0--------0--------0-----|--4-----------2-----------|
|--------------------------|--------------------------|


                                                    
|--------------------------|--------0-----------------|
|--1--------0--------0-----|--0h1------0--------0-----|
|--------2--------2--------|-----------------0-----0--|
|-----0--------0--------0--|--------------0-----------|
|--0--------0--------0-----|--0--------0--------0-----|
|--------------------------|--------------------------|


                                                    
|--4--------4--------4-----|-----------0-----------0--|
|--------------------------|--3-----------1-----------|
|--------4--------4--------|--------0-----------0-----|
|-----0--------0--------0--|-----4-----------2--------|
|--0--------0--------0-----|--4-----------2-----------|
|--------------------------|--------------------------|


                                                    
|--------------------------|--3--------3--------------|
|--1--------0--------0-----|--------------------0-----|
|--------2--------2--------|--------2--------2--------|
|-----0--------0--------0--|-----0--------0--------0--|
|--0--------0--------0-----|--0--------0--------0-----|
|--------------------------|--------------------------|


                                                    
|-----------0--------------|-----------0--------------|
|--1-----------------1-----|--1-----------------0-----|
|--------0--------0--------|--------0--------0--------|
|-----2--------2--------2--|-----2--------2--------0--|
|--2--------2--------2-----|--2--------2--------0-----|
|--------------------------|--------------------------|


                                                    
|-----------5--------------|--5--------5--------------|
|--5-----------------5-----|--------------------5-----|
|--------5--------5--------|--------5--------5--------|
|-----5--------5--------5--|-----5--------5--------0--|
|--5--------5--------5-----|--5--------5--------5-----|
|--------------------------|--------------------------|


                                                    
|--4--------4--------4-----|-----------0-----------0--|
|--------------------------|--3-----------1-----------|
|--------4--------4--------|--------0-----------0-----|
|-----0--------0--------0--|-----4-----------2--------|
|--0--------0--------0-----|--4-----------2-----------|
|--------------------------|--------------------------|

                          
                                                    
|--------------------------|--0----------------|
|--1--------0--------0-----|-------------------|
|--------2--------2--------|-------------------|
|-----0--------0--------0--|-------------------|
|--0--------0--------0-----|--0----------------|
|--------------------------|-------------------|


Green, like the color
                                                    
|-----------5--------------|-----------3--------3-----|
|--5-----------------5-----|--3-----------------------|
|--------5--------5--------|--------3--------3--------|
|-----5--------5--------0--|-----3--------3--------3--|
|--5--------5--------5-----|--3--------3--------3-----|
|--------------------------|--------------------------|


                                                    
|-----------------0--------|-----------0--------------|
|--0--------1--------1-----|--1-----0-----------0-----|
|--------0-----------------|-----------------0-----0--|
|-----0--------0--------0--|-----0--------0-----------|
|--0--------0--------0-----|--0-----0--0--------------|
|--------------------------|--------------------------|


                                                    
|-----------0--------------|-----------0--------------|
|--3-----------------3-----|--1-----------------1-----|
|--------0--------0--------|--------0--------0--------|
|-----4--------4--------0--|-----2--------2--------0--|
|--4--------4--------4-----|--2--------2--------2-----|
|--------------------------|--------------------------|


                                                    
|--------------------------|--0----------------|
|--1--------0--------0-----|-------------------|
|--------2--------2--------|-------------------|
|-----0--------0--------0--|-------------------|
|--0--------0--------0-----|--0----------------|
|--------------------------|-------------------|


Green, like the nights
                                                    
|-----------5--------------|-----------3--------3-----|
|--5-----------------5-----|--3-----------------------|
|--------5--------5--------|--------3--------3--------|
|-----5--------5--------0--|-----3--------3--------3--|
|--5--------5--------5-----|--3--------3--------3-----|
|--------------------------|--------------------------|


                                                   
|-----------------0--------|----------0--------------|
|--0--------1--------1-----|--1----0-----------0-----|
|--------0-----------------|----------------0-----0--|
|-----0--------0--------0--|-------------0-----------|
|--0--------0--------0-----|--0----0--0--------------|
|--------------------------|-------------------------|


                                                    
|-----------0--------------|-----------0--------------|
|--3-----------------3-----|--1-----------------1-----|
|--------0--------0--------|--------0--------0--------|
|-----4--------4--------0--|-----2--------2--------0--|
|--4--------4--------4-----|--2--------2--------2-----|
|--------------------------|--------------------------|


                                                    
|-----------0-----------0--|--------------------------|
|--3-----------1-----------|--1--------0--------0-----|
|--------0-----------0-----|--------2--------2--------|
|-----4-----------2--------|-----0--------0--------0--|
|--4-----------2-----------|--0--------0--------0-----|
|--------------------------|--------------------------|


                           Child with a child pretending
                                                    
|--------0-----------------|--4--------4--------4-----|
|--0h1------0--------0-----|--------------------------|
|-----------------0-----0--|--------4--------4--------|
|--------------0-----------|-----0--------0--------0--|
|--0--------0--------0-----|--0--------0--------0-----|
|--------------------------|--------------------------|


                                                    
|-----------0-----------0--|--------------------------|
|--3-----------1-----------|--1--------0--------0-----|
|--------0-----------0-----|--------2--------2--------|
|-----4-----------2--------|-----0--------0--------0--|
|--4-----------2-----------|--0--------0--------0-----|
|--------------------------|--------------------------|


                                                    
|--------0-----------------|--4--------4--------4-----|
|--0h1------0--------0-----|--------------------------|
|-----------------0-----0--|--------4--------4--------|
|--------------0-----------|-----0--------0--------0--|
|--0--------0--------0-----|--0--------0--------0-----|
|--------------------------|--------------------------|


                                                    
|-----------0-----------0--|--------------------------|
|--3-----------1-----------|--1--------0--------0-----|
|--------0-----------0-----|--------2--------2--------|
|-----4-----------2--------|-----0--------0--------0--|
|--4-----------2-----------|--0--------0--------0-----|
|--------------------------|--------------------------|


                                                    
|--3--------3--------------|-----------0--------------|
|--------------------0-----|--1-----------------1-----|
|--------2--------2-----0--|--------0--------0--------|
|-----0--------0-----0-----|-----2--------2--------2--|
|--0--------0--------------|--2--------2--------2-----|
|--------------------------|--------------------------|


                                                    
|--0--------0--------------|-----------5--------------|
|--------------------0-----|--5-----------------5-----|
|--------0--------0--------|--------5--------5--------|
|-----2--------2--------0--|-----5--------5--------5--|
|--2--------2--------0-----|--5--------5--------5-----|
|--------------------------|--------------------------|


                                                    
|--5--------5--------5-----|--4--------4--------4-----|
|--------------------------|--------------------------|
|--------5--------5--------|--------4--------4--------|
|-----5--------5--------0--|-----0--------0--------0--|
|--5--------5--------5-----|--0--------0--------0-----|
|--------------------------|--------------------------|


                                                    
|-----------0-----------0--|--------------------------|
|--3-----------1-----------|--1--------0--------0-----|
|--------0-----------0-----|--------2--------2--------|
|-----4-----------2--------|-----0--------0--------0--|
|--4-----------2-----------|--0--------0--------0-----|
|--------------------------|--------------------------|


                    Green, like the color
                                             
|--0----------------|-----------5--------------|
|-------------------|--5-----------------5-----|
|-------------------|--------5--------5--------|
|-------------------|-----5--------5--------0--|
|--0----------------|--5--------5--------5-----|
|-------------------|--------------------------|


                                                    
|-----------3--------3-----|-----------------0--------|
|--3-----------------------|--0--------1--------1-----|
|--------3--------3--------|--------0--------0--------|
|-----3--------3--------3--|-----0--------2--------2--|
|--3--------3--------3-----|--0--------0--------0-----|
|--------------------------|--------------------------|


                                                    
|-----------0--------------|-----------0--------------|
|--1-----0-----------0-----|--3-----------------3-----|
|-----------------0-----0--|--------0--------0--------|
|-----0--------0-----------|-----4--------4--------0--|
|--0-----0--0--------------|--4--------4--------4-----|
|--------------------------|--------------------------|


                                                    
|-----------0--------------|--------------------------|
|--1-----------------1-----|--1--------0--------0-----|
|--------0--------0--------|--------2--------2--------|
|-----2--------2--------0--|-----0--------0--------0--|
|--2--------2--------2-----|--0--------0--------0-----|
|--------------------------|--------------------------|


                    Green, like the nights
                                             
|--0----------------|-----------5--------5-----|
|-------------------|--5-----------------------|
|-------------------|--------5--------5--------|
|-------------------|-----5--------5--------0--|
|--0----------------|--5--------5--------5-----|
|-------------------|--------------------------|


                                                   
|-----------3--------3-----|-------------------------|
|--3-----------------------|--0--------1-------1-----|
|--------3--------3--------|--------0----------------|
|-----3--------3--------3--|-----0--------0-------0--|
|--3--------3--------3-----|--0--------0-------0-----|
|--------------------------|-------------------------|


                                                    
|-----------0--------------|-----------0--------------|
|--1-----0-----------0-----|--3-----------------3-----|
|-----------------0-----0--|--------0--------0--------|
|-----0--------0-----------|-----4--------4--------0--|
|--0-----0--0--------------|--4--------4--------4-----|
|--------------------------|--------------------------|


                                                    
|-----------0--------------|-----------0-----------0--|
|--1-----------------1-----|--3-----------1-----------|
|--------0--------0--------|--------0-----------0-----|
|-----2--------2--------0--|-----4-----------2--------|
|--2--------2--------2-----|--4-----------2-----------|
|--------------------------|--------------------------|


                                                    
|--------------------------|-----------0--------------|
|--1--------1--------1-----|--1-----------------1-----|
|--------2--------2--------|--------2--------2--------|
|-----0--------0--------0--|-----0--------0--------0--|
|--0--------0--------0-----|--0--------0--------0-----|
|--------------------------|--------------------------|


                                                    
|-----------0--------------|--------0-----------0-----|
|--0-----------------0-----|--0h1------1--------------|
|--------2--------2--------|-----------------2--------|
|-----0--------0--------0--|--------------0--------0--|
|--0--------0--------0-----|--0--------0--------0-----|
|--------------------------|--------------------------|


                                                    
|--------------------------|--------0-----------0-----|
|--0--------0--------0-----|--0h1------1--------------|
|--------2--------2--------|-----------------2--------|
|-----0--------0--------0--|--------------0--------0--|
|--0--------0--------0-----|--0--------0--------0-----|
|--------------------------|--------------------------|


                                                    
|--------------------------|--------0-----------------|
|--0--------0--------0-----|--0h1------1--------1-----|
|--------2--------2--------|-----------------2--2-----|
|-----0--------0--------0--|--------------0--0--0--0--|
|--0--------0--------0-----|--0--------0--------------|
|--------------------------|--------------------------|


                                               
|--------0-----------0--|-----------------------||
|--0h1------1-----------|----------0------------||
|-----------------------|--------0--------------||
|-----------------------|------0----------------||
|--0--------0-----------|----0------------------||
|-----------------------|--0--------------------||

 

This transcription is the author's own work and represents their interpretation of the song.
You may only use this file for private study, scholarship, or research.
Copyrighted material on this website is used in accordance with 'Fair Use'

Comments on this transcription


» Log in and be the first to add a comment.