TRANSCRIPTIONS    

Barangrill

Guitar tablature transcribed by Mark Domyancich  Printer-friendly version of this piece
Tuning: EbBbDbGBbEb   "Joni" Tuning: Eb73635

Rating: 0.00 (no ratings)
Log in to rate this transcription


Intro:

-----10---10---10---12----0---0---------------------5--7--0--0
-----10---10---10---12----0---0---------------------5--7--0--0
-----10---10---10---12----0---0---------------------5--7--0--0
-----(0)--(0)--(0)--(0)--(0)-(0)--------------------0--0--0--0
-----------------------------------------5--------------------
-0---------------------------------12/5-----x--0--------------
                                            ^
                                            |
                                  Slap string with pick

0x9890
Three waitresses all wearing

0x7670        0x7677      0x0000
Black diamond earrings

                
555400                    222100
Talking about zombies and Singapore 

---------------12-----
---------------12-----
---------------12-----
----------------------
----------------------
5-4-0--5-4-0-------10/
slings

   0x9890
No trouble in their faces

0x7670           0x7677       0x0000
Not    one anx - ious   voice

555400                    222100
None of the crazy you get from too much choice

-----------------------
-----------------------
-----------------------
-----------------------
-----------------------
-0-5-4-0--5-4-0-----10/

    555400                        222100
The thumb  and the satchel or the rented Rolls

-------------------------------
-------------------------------
-------------------------------
-------------------------------
-------------------------------
-0-5-4-0-0--5-4-0-0----------12
                     -Royce

777600
And you think she knows something
     
       222100
By the second refill

    999800
You think she's enlightened
 
       444300
As she totals your bill
  
         222100  xx00xx   555400
You say "Show me the      way
To Barangrill"

-----10---10---10---12----0---0---------------------5--7--0--0
-----10---10---10---12----0---0---------------------5--7--0--0
-----10---10---10---12----0---0---------------------5--7--0--0
-----(0)--(0)--(0)--(0)--(0)-(0)--------------------0--0--0--0
-----------------------------------------5--------------------
-0---------------------------------12/5-----x--0--------------
                                            ^
                                            |
                                  Slap string with pick
                                  
                                  
Follow the same pattern for other verses:

Well some say it's in service
They say "Humble Makes Pure"
You're hoping it's near Folly
'Cause you're headed that way for sure
And you just have to laugh
'Cause it's all so crazy
Ah, her mind's on her boyfriend
And eggs over easy
It's just a trick on you
Her mirrors and your will
So you ask the truck driver
On the way to the till
But he's just a slave
To Barangrill

The guy at the gas pumps
He's got a lot of soul
He sings Merry Christmas for you
Just like Nat King Cole
And he makes up his own tune
Right on the spot
About whitewalls and windshields
And this job he's got
And you want to get moving
And you want to stay still
But lost in the moment
Some longing gets filled
And you even forget to ask
"Hey, Where's Barangrill?"

Repeat intro till fade out.

© 1972 Crazy Crow Music, all rights reserved.

 

This transcription is the author's own work and represents their interpretation of the song.
You may only use this file for private study, scholarship, or research.
Copyrighted material on this website is used in accordance with 'Fair Use'

Comments on this transcription


» Log in and be the first to add a comment.